Imagine Dragons - Not Today (Audio)


0 comment


26 November 2020, 11:48 pm by antelove19

Imagine Dragons - Not Today (Audio)
Imagine Dragons - Not Today (Audio)

There she goes in front of me Take my life and set me free again We'll make a memory out of it Holy road is at my back Don't look on, take me back again We'll make a memory out of it


Sources:

  1. ImagineDragons



There she goes in front of me

Take my life and set me free again

We'll make a memory out of it

Holy road is at my back

Don't look on, take me back again

We'll make a memory out of it


We finally fall apart and we break each other's hearts

If we wanna live young, love, we better start today


It's gotta get easier, oh easier somehow

Cause I'm falling, I'm falling

Oh easier and easier somehow

Oh I'm calling, I'm calling

And it isn't over unless it is over

I don't wanna wait for that

It's gotta get easier and easier somehow

But not today

Not today


There she goes in front of me

Take my life, set me free again

We'll make a memory out of it

Holy road was at my back

Don't look on, take me back again

We'll make a memory out of it


We finally fall apart and we break each other's hearts

If we wanna live young, love, we better start today


It's gotta get easier, oh easier somehow

Cause I'm falling, I'm falling

Oh easier and easier somehow

Oh I'm calling, I'm calling

And it isn't over unless it is over

I don't wanna wait for that

It's gotta get easier and easier


So come with me

You'll come with me-ey

So come with me

You'll come with me-ey

Not today

Not today

Not today

Not today


It's gotta get easier and easier somehow

Cause I'm falling, I'm falling

And easier and easier somehow

Oh I'm calling and calling

And it isn't over unless it is over

I don't wanna wait for that

It's gotta get easier and easier somehow

It's gotta get easier and easier somehow

Not today

Not today

Not today

Not today

Not today



Tuning: Standard, EADGBe


      EADGBe



C     x32010

F/C   x33211

Am    x02210

G     320003

F     133211

G*    355433   (you can play G for it, too)

Dm    xx0231

Em    022000



[Intro]


 C


e|---3--3-----8--8-----7--7------------|

B|------------------------------8--8---|

G|-------------------------------------|

D|-------------------------------------|

A|-------------------------------------|

E|-------------------------------------|



[Verse 1]


C

There she goes in front of me

                            F/C

Take my life, set me free again

                           C

We'll make a memory out of it


Holy road is at my back

                              F/C

Don't look on, take me back again

                           C

We'll make a memory out of it



e|---3--3-----8--8-----7--7-----------------------------------------------|

B|------------------------------8--8--------10--10--------6--6-----8--8---|

G|------------------------------------------------------------------------|

D|------------------------------------------------------------------------|

A|------------------------------------------------------------------------|

E|------------------------------------------------------------------------|    (2x)



[Pre-Chorus]

e|----------|

B|----------|

G|----------|

D|----------|

A|---3--2---|

E|----------|


   Am

We finally fall apart and we break each other's hearts

             F                                   G*

If we wanna live young, love, we better start today



[Chorus]

               F          C           G

It's gotta get easier, oh easier somehow


Cause I'm falling, I'm falling

   F           C          G

Oh easier and easier somehow


Oh I'm calling, I'm calling

    F                C

And it isn't over unless it is over

G

I don't wanna wait for that

               Am         G           F

It's gotta get easier, oh easier somehow

           C         F/C

But not today, not today



[Verse 2]


C

There she goes in front of me

                            F/C

Take my life, set me free again

                           C

We'll make a memory out of it


Holy road is at my back

                              F/C

Don't look on, take me back again

                           C

We'll make a memory out of it


e|---3--3-----8--8-----7--7-----------------------------------------------|

B|------------------------------8--8--------10--10--------6--6-----8--8---|

G|------------------------------------------------------------------------|

D|------------------------------------------------------------------------|

A|------------------------------------------------------------------------|

E|------------------------------------------------------------------------|    (2x)



[Pre-Chorus]

e|----------|

B|----------|

G|----------|

D|----------|

A|---3--2---|

E|----------|


   Am

We finally fall apart and we break each other's hearts

            F                                    G*

If we wanna live young, love, we better start today



[Chorus]

               F          C           G

It's gotta get easier, oh easier somehow


Cause I'm falling, I'm falling

   F           C          G

Oh easier and easier somehow


Oh I'm calling, I'm calling

    F                C

And it isn't over unless it is over

G

I don't wanna wait for that

               Am         G           

It's gotta get easier, oh easier, so..



[Bridge]


Dm

So come with me

Em              F

Come with me, eeey

Dm

So come with me

Em              F      G

Come with me, eeey

       C         F/C

Not today, not today

       C         F/C

Not today, not today


e|---3--3-----8--8-----7--7------------|

B|------------------------------8--8---|

G|-------------------------------------|

D|-------------------------------------|

A|-------------------------------------|

E|-------------------------------------|



[Chorus]

               F          C           G

It's gotta get easier, oh easier somehow


Cause I'm falling, I'm falling

    F           C          G

And easier and easier somehow


Oh I'm calling, I'm calling

    F                C

And it isn't over unless it is over

G

I don't wanna wait for that

               Am         G           F

It's gotta get easier and easier somehow

               Am         G           F

It's gotta get easier, oh easier somehow



[Outro]

           C         F/C

But not today, not today

       C          F/C

Not today, not today

         F

Not today


e|---3--3-----8--8-----7--7------------|

B|------------------------------8--8---|

G|-------------------------------------|

D|-------------------------------------|

A|-------------------------------------|

E|-------------------------------------|    (2x)



_____________________________________________________________________________________________________________



[Piano Sound]


e|---3--3-----8--8-----7--7------------|

B|------------------------------8--8---|

G|-------------------------------------|

D|-------------------------------------|

A|-------------------------------------|

E|-------------------------------------| 


e|---3--3-----8--8-----7--7-----------------------------------------------|

B|------------------------------8--8--------10--10--------6--6-----8--8---|

G|------------------------------------------------------------------------|

D|------------------------------------------------------------------------|

A|------------------------------------------------------------------------|

E|------------------------------------------------------------------------|  (easier to play)


or


e|---8--8-----20--20-----19--19-----15--15---|

B|-------------------------------------------|

G|-------------------------------------------|

D|-------------------------------------------|

A|-------------------------------------------|

E|-------------------------------------------| (sounds better)


e|---8--8-----20--20-----19--19-----15--15--------17--17--------13--13-----15--15---|

B|----------------------------------------------------------------------------------|

G|----------------------------------------------------------------------------------|

D|----------------------------------------------------------------------------------|

A|----------------------------------------------------------------------------------|

E|----------------------------------------------------------------------------------| (sounds better)